Contact Info / Websites

And another...

2008-07-14 04:27:33 by Xcalivar52

another snake.

And another...


Solid Snake.

2008-07-14 04:22:02 by Xcalivar52

This is Solid Snake, in a ninja costume.

Solid Snake.


Dis is Mah Bro

2008-07-04 04:55:08 by Xcalivar52

This is me and my bro, hanging with my dads P_51 Mustang.

Dis is Mah Bro


Ooh.

2008-07-03 14:25:01 by Xcalivar52

Zabuza got BITCHSLAPPED!

Ooh.


New Punkrock.

2008-06-14 13:35:00 by Xcalivar52
Updated

NEW PUNK-O-MATIC SONG: The Rising Sun's- by Robbie and Austin: 0---0---5-5-----6-0---3---3---3---9-66 -3-----------6---------------5-0---4-4 -5-6-9---------------------4---8---4--
-7-7-c--6-4-------------4---3-1---2---
--8---4-------c---0---0---7-8-a-a-7-7-
8-0---8-8-2-2-a--9-8-8-0---8-a--------
-----------7-8-4-4-----a---

New Punkrock.


Here's my Punk-O-Matic code.

2008-06-06 17:02:56 by Xcalivar52
Updated

It's unfinished, but you can add on to it, 9---9---0---0---5-5-0---5-5-0---------
--------------------------------------
---------4---4---4---4---0---4---6-6-4 --------------------------------------
------------------a---0---0---6-6-----
0---4-4-4-4-7-7-----------------------
---------------------------

NEW:9---9---0---0---5-5-0---5-5-0-----
--0---5-5-5-5---5-5-9-----------------
-------------4---4---4---4---0---4---6 -6-4-------4---6-6-0-----0---c--------
----------------------a---0---0---6-6-
----0---4-4-4-4-7-8-4-4-4-4-----8-8-8-
a------------------------------

Here's my Punk-O-Matic code.


I NEED YOUR HELP FRIENDS!

2008-06-04 21:16:38 by Xcalivar52

I'm going to make a flash collaboration. In this I will have two people helping me out. Number One is: Bobert-Rob. I need another person to help me manage this flash. Please make flashes and email them to me. My email address is Fuck you, click this now. TYVM. Good night! ^.^


WOOT

2008-05-31 22:09:55 by Xcalivar52

Right now, I'm excited. Tomorrow, I get to try out Adobe Flash Animation free, for 30 days, only one week left of college and then the only thing thats keeping me from summer is my dad. Heres an awesome picture

WOOT


Hey whats up.

2008-05-29 19:21:38 by Xcalivar52

Yo, whats up everyone! I'm Austin and I'm here to tell you whats up! I want you to know that I will not be making flashes, but rating and commenting on others. If you want, I could ask some people of what flashes they are making and post you on how they are. If you want my runescape account its Krakken0106. Add me if you want, but I probably won't add you, unless u pm me. Also, my email address is Guitarist5784. So message me on RS or my email. Cya later.